We R The Guitar Lovers

لتعليم الجيتار والكوردات والغناء والتاليف وكلمات الاغاني وكل ماله علاقة بالغناء
 
الرئيسيةالبوابةاليوميةس .و .جالأعضاءالتسجيلدخول

شاطر | 
 

 تاب انت اية (لاحلى منتدى)

استعرض الموضوع السابق استعرض الموضوع التالي اذهب الى الأسفل 
كاتب الموضوعرسالة
Guliano_2020
فــنان مــشهـــور
فــنان مــشهـــور
avatar

ذكر
عدد المساهمات : 56
نقاط : 29722
تاريخ التسجيل : 13/10/2009

مُساهمةموضوع: تاب انت اية (لاحلى منتدى)   21/10/2009, 5:14 pm

This also features in the verses of Enta Eih.
|----------------------------------------------------------------------------------|-
|----------------------------------------------------------------------------------|-
|----------------------------------------------------------------------------------|-
|----3-2-3---3-2-3---5-7-5---5-7-5---2-0-2---3-5-3---2-0-2-----------------3-3-2-3-|-
|--5-------5-------5-------5-------3-------3-------3-------0-0-3-0-1-3-5-5---------|-
|----------------------------------------------------------------------------------|-
|--------------|
|--------------|
|--------------|
|------0-----2-|
|--1-1---3-3---|
|--------------| by valantinu_man tito_mhm48@yahoo.com
الرجوع الى أعلى الصفحة اذهب الى الأسفل
MARWAN_ELGHANNAM
مـــديــــر عـــــام
مـــديــــر عـــــام
avatar

ذكر
السمك
عدد المساهمات : 734
نقاط : 31225
تاريخ التسجيل : 23/08/2009
العمر : 26
الموقع : http://guitarlovers.yoo7.com

مُساهمةموضوع: رد: تاب انت اية (لاحلى منتدى)   21/10/2009, 8:58 pm

الله ينور يا برنس بس معلش هتعبك معايا يا ريت لو تكتبهم على ملف نوتة وترفعهم علىى موقع رفع عشان كده الكتابة في الضياع

_________________________________________
█▓▒░MERO★GUITAR░▒▓█


【ツ】  ♆نــــاويـــــ اعــــجـــــبــــكــــمــ♆  【ツ】


شباب دي ايميلاتي الجديدة لان القدام اتسرقو يعني محدش يفكر يكلمني عالاكاونتات القديمة ،، الي محتاج اي حاجة يكلمني على دول


وده الاكاونت بتاعي عالفيس بوك ،، وتحت امركم فاي وقت لاي استفسار


رقمي فمصر 01095002070
رقمي في الكويت 0096565558459

instagram
Marwan_Aventador
الرجوع الى أعلى الصفحة اذهب الى الأسفل
http://guitarlovers.yoo7.com
mahamuod147
فــنان مــشهـــور
فــنان مــشهـــور


ذكر
عدد المساهمات : 99
نقاط : 25571
تاريخ التسجيل : 01/12/2010

مُساهمةموضوع: رد: تاب انت اية (لاحلى منتدى)   9/5/2011, 9:56 pm

dh ktabtha 3'alat 5ales 7awel tzbtha showih
الرجوع الى أعلى الصفحة اذهب الى الأسفل
بيان
فــنان جــديـد
فــنان جــديـد


انثى
عدد المساهمات : 9
نقاط : 16109
تاريخ التسجيل : 25/06/2013

مُساهمةموضوع: رد: تاب انت اية (لاحلى منتدى)   25/6/2013, 7:14 pm

انا بدي اياه فيديو ممكن !! لانو مش عارفه كيف اعملهم
الرجوع الى أعلى الصفحة اذهب الى الأسفل
 
تاب انت اية (لاحلى منتدى)
استعرض الموضوع السابق استعرض الموضوع التالي الرجوع الى أعلى الصفحة 
صفحة 1 من اصل 1

صلاحيات هذا المنتدى:لاتستطيع الرد على المواضيع في هذا المنتدى
We R The Guitar Lovers :: عــالـــم الجــيــتار :: تابات الجــيتار-
انتقل الى: