We R The Guitar Lovers

لتعليم الجيتار والكوردات والغناء والتاليف وكلمات الاغاني وكل ماله علاقة بالغناء
 
الرئيسيةالبوابةاليوميةس .و .جالأعضاءالتسجيلدخول

شاطر | 
 

 تاب الحلوة دى

استعرض الموضوع السابق استعرض الموضوع التالي اذهب الى الأسفل 
كاتب الموضوعرسالة
Guliano_2020
فــنان مــشهـــور
فــنان مــشهـــور
avatar

ذكر
عدد المساهمات : 56
نقاط : 30322
تاريخ التسجيل : 13/10/2009

مُساهمةموضوع: تاب الحلوة دى   21/10/2009, 5:05 pm

???? ???? ??? ?????

---0----0-2\\\\-3-2-0-\\\\--2-0---\\\\-0-----0-------\\\\-------------
-0---4------\\\\-------\\\\-----4--\\\\--4-1---4-1-0--\\\\------------
-------------\\\\-------\\\\--------\\\\---------------\\\\-----------
--------------\\\\-------\\\\--------\\\\---------------\\\\----------
---------------\\\\-------\\\\--------\\\\---------------\\\\---------
----------------\\\\-------\\\\--------\\\\---------------\\\\--------




---0---0-2-2\\\\--2-2-\\\\7-(S)-2-\\\\3-2-0--- 0-2-3-\\\\3-3-\\\\2-3\\\\-3-2-3-\\\\
-0---4-------\\\\------\\\\----\\\\----------4---\\\\----\\\\---\\\\-------\\\\--
--------------\\\\------\\\\----\\\\--------------\\\\----\\\\---\\\\-------\\\\-
---------------\\\\------\\\\----\\\\--------------\\\\----\\\\---\\\\-------\\\\
----------------\\\\------\\\\----\\\\--------------\\\\----\\\\---\\\\------\\\\
-----------------\\\\------\\\\----\\\\--------------\\\\----\\\\---\\\\-----\\\\




--5-3-2-\\\\2-0-2\\\\-3-2-0-\\\\0----0-\\\\2-------0--\\\\----0-----------
---------\\\\-----\\\\-------\\\\-4-----\\\\-4-1-4---1-\\\\1-----4-1-1-0-0
----------\\\\-----\\\\-------\\\\-------\\\\-----------\\\\-------------
-----------\\\\-----\\\\-------\\\\-------\\\\-----------\\\\-------------
------------\\\\-----\\\\-------\\\\-------\\\\-----------\\\\------------
-------------\\\\-----\\\\-------\\\\-------\\\\-----------\\\\----------

kteeeeeeeeeeer 7elwa 3ala al guitar
valantinu_man
tito_mhm48@yahoo.com
الرجوع الى أعلى الصفحة اذهب الى الأسفل
MARWAN_ELGHANNAM
مـــديــــر عـــــام
مـــديــــر عـــــام
avatar

ذكر
السمك
عدد المساهمات : 734
نقاط : 31825
تاريخ التسجيل : 23/08/2009
العمر : 26
الموقع : http://guitarlovers.yoo7.com

مُساهمةموضوع: رد: تاب الحلوة دى   21/10/2009, 9:00 pm

الله ينور يا برنس بس معلش هتعبك معايا يا ريت لو تكتبهم على ملف نوتة وترفعهم علىى موقع رفع عشان كده الكتابة في الضياع

_________________________________________
█▓▒░MERO★GUITAR░▒▓█


【ツ】  ♆نــــاويـــــ اعــــجـــــبــــكــــمــ♆  【ツ】


شباب دي ايميلاتي الجديدة لان القدام اتسرقو يعني محدش يفكر يكلمني عالاكاونتات القديمة ،، الي محتاج اي حاجة يكلمني على دول


وده الاكاونت بتاعي عالفيس بوك ،، وتحت امركم فاي وقت لاي استفسار


رقمي فمصر 01095002070
رقمي في الكويت 0096565558459

instagram
Marwan_Aventador
الرجوع الى أعلى الصفحة اذهب الى الأسفل
http://guitarlovers.yoo7.com
ashkanani
فــنان جــديـد
فــنان جــديـد


ذكر
عدد المساهمات : 4
نقاط : 28704
تاريخ التسجيل : 13/03/2010

مُساهمةموضوع: رد: تاب الحلوة دى   13/3/2010, 2:11 am

مشكوووؤ بس شنو المغصوورد ب \\\\ المحطوطه مع التابات .؟ هل تغصد الرش ؟
الرجوع الى أعلى الصفحة اذهب الى الأسفل
GuitarHolic
فــنان جــديـد
فــنان جــديـد


ذكر
عدد المساهمات : 5
نقاط : 27645
تاريخ التسجيل : 27/06/2010

مُساهمةموضوع: رد: تاب الحلوة دى   27/6/2010, 7:20 pm

asdasd
الرجوع الى أعلى الصفحة اذهب الى الأسفل
cavu
فــنان جــديـد
فــنان جــديـد


ذكر
عدد المساهمات : 7
نقاط : 27367
تاريخ التسجيل : 25/07/2010

مُساهمةموضوع: رد: تاب الحلوة دى   26/7/2010, 12:04 am

انا مش فاهم معنى الشرط ياريت توضيح
الرجوع الى أعلى الصفحة اذهب الى الأسفل
Miles
فــنان جــديـد
فــنان جــديـد


ذكر
عدد المساهمات : 16
نقاط : 27419
تاريخ التسجيل : 21/07/2010

مُساهمةموضوع: رد: تاب الحلوة دى   26/7/2010, 1:08 am

الرجوع الى أعلى الصفحة اذهب الى الأسفل
Miles
فــنان جــديـد
فــنان جــديـد


ذكر
عدد المساهمات : 16
نقاط : 27419
تاريخ التسجيل : 21/07/2010

مُساهمةموضوع: رد: تاب الحلوة دى   26/7/2010, 1:09 am

الرجوع الى أعلى الصفحة اذهب الى الأسفل
mohamad meknas
فــنان مــشهـــور
فــنان مــشهـــور


ذكر
عدد المساهمات : 50
نقاط : 28600
تاريخ التسجيل : 28/03/2010

مُساهمةموضوع: رد: تاب الحلوة دى   5/8/2010, 12:46 am

مشكوررررررررررررررررررررررر
الرجوع الى أعلى الصفحة اذهب الى الأسفل
بدووووري
فــنان جــديـد
فــنان جــديـد


ذكر
عدد المساهمات : 4
نقاط : 26824
تاريخ التسجيل : 17/09/2010

مُساهمةموضوع: رد: تاب الحلوة دى   17/9/2010, 6:33 pm

مشكووووووووووور
الرجوع الى أعلى الصفحة اذهب الى الأسفل
kimoguitar
فــنان جــديـد
فــنان جــديـد


ذكر
عدد المساهمات : 8
نقاط : 23138
تاريخ التسجيل : 21/09/2011

مُساهمةموضوع: رد: تاب الحلوة دى   21/9/2011, 8:14 pm

Cool
الرجوع الى أعلى الصفحة اذهب الى الأسفل
hesham222222
فــنان جــديـد
فــنان جــديـد


ذكر
عدد المساهمات : 13
نقاط : 22933
تاريخ التسجيل : 12/10/2011

مُساهمةموضوع: رد: تاب الحلوة دى   13/10/2011, 12:13 am

شكرا قوووووووووووووووي يا مروان
الرجوع الى أعلى الصفحة اذهب الى الأسفل
hamofofo
فــنان جــديـد
فــنان جــديـد


ذكر
عدد المساهمات : 4
نقاط : 22664
تاريخ التسجيل : 08/11/2011

مُساهمةموضوع: رد: تاب الحلوة دى   8/11/2011, 12:55 am

thnx
الرجوع الى أعلى الصفحة اذهب الى الأسفل
medona
فــنان جــديـد
فــنان جــديـد


ذكر
عدد المساهمات : 18
نقاط : 19888
تاريخ التسجيل : 12/08/2012

مُساهمةموضوع: رد: تاب الحلوة دى   13/8/2012, 1:07 am

meeerrciiii
الرجوع الى أعلى الصفحة اذهب الى الأسفل
 
تاب الحلوة دى
استعرض الموضوع السابق استعرض الموضوع التالي الرجوع الى أعلى الصفحة 
صفحة 1 من اصل 1

صلاحيات هذا المنتدى:لاتستطيع الرد على المواضيع في هذا المنتدى
We R The Guitar Lovers :: عــالـــم الجــيــتار :: تابات الجــيتار-
انتقل الى: