We R The Guitar Lovers

لتعليم الجيتار والكوردات والغناء والتاليف وكلمات الاغاني وكل ماله علاقة بالغناء
 
الرئيسيةالبوابةاليوميةس .و .جالأعضاءالتسجيلدخول

شاطر | 
 

 تاب نسم علينا الهوى

استعرض الموضوع السابق استعرض الموضوع التالي اذهب الى الأسفل 
كاتب الموضوعرسالة
Guliano_2020
فــنان مــشهـــور
فــنان مــشهـــور
avatar

ذكر
عدد المساهمات : 56
نقاط : 30322
تاريخ التسجيل : 13/10/2009

مُساهمةموضوع: تاب نسم علينا الهوى   21/10/2009, 4:55 pm

e |------------------------------------------------------------- |
B |-------------------------------1-3--------1------------------ |
G |-0-2-3-2-2--0-2-3-2-2--------3----3--2-3----2-0-2-3-2-2------ |
D |------------------------------------------------------------- |
A |------------------------------------------------------------- |
E |------------------------------------------------------------- |
nasam 3alayan lhawa ...
e |------------------------------------------------------------|
B |------------------------------------------------------------|
G |-3-2-0-------2-0-------------0------------------------------|
D |-------3-2--------3-2-0--------3-2-0------------------------|
A |-------------------------------------3-1-0--0-1-3-1-0-------|
E |------------------------------------------------------------|


ya hawa dakhl lhawa ...
e |--------------------------------------------------------------|
B |--------------------------1-3-1-------------------------------|
G |--2-3-2-0---2-3-2-0---2-3-------3-2---2-0-2-3-0-----0-2-------|
D |--------------------------------------------------3-----3-2---|
A |--------------------------------------------------------------|
E |--------------------------------------------------------------|

ending verse..
e |------------------------------------------------------------- |
B |------------------------------------------------------------- |
G |-0-0--------------------------------------------------------- |
D |-----3-3-2-2-0-0--------------------------------------------- |
A |-----------------3-3-1-1-0--0-1-3-1-0------------------------ |
E |------------------------------------------------------------- |

hope that u would find it nice .. just listen 2 the song and play it.. u wont
find any difference lol Razz


if u need anythin u can contact me at my email .. tito_mhm48@yahoo.com
الرجوع الى أعلى الصفحة اذهب الى الأسفل
MARWAN_ELGHANNAM
مـــديــــر عـــــام
مـــديــــر عـــــام
avatar

ذكر
السمك
عدد المساهمات : 734
نقاط : 31825
تاريخ التسجيل : 23/08/2009
العمر : 26
الموقع : http://guitarlovers.yoo7.com

مُساهمةموضوع: رد: تاب نسم علينا الهوى   21/10/2009, 9:11 pm

الله ينور يا برنس بس معلش هتعبك معايا يا ريت لو تكتبهم على ملف نوتة وترفعهم علىى موقع رفع عشان كده الكتابة في الضياع

_________________________________________
█▓▒░MERO★GUITAR░▒▓█


【ツ】  ♆نــــاويـــــ اعــــجـــــبــــكــــمــ♆  【ツ】


شباب دي ايميلاتي الجديدة لان القدام اتسرقو يعني محدش يفكر يكلمني عالاكاونتات القديمة ،، الي محتاج اي حاجة يكلمني على دول


وده الاكاونت بتاعي عالفيس بوك ،، وتحت امركم فاي وقت لاي استفسار


رقمي فمصر 01095002070
رقمي في الكويت 0096565558459

instagram
Marwan_Aventador
الرجوع الى أعلى الصفحة اذهب الى الأسفل
http://guitarlovers.yoo7.com
sa7ar_mo7ammed
فــنان مــشهـــور
فــنان مــشهـــور
avatar

انثى
عدد المساهمات : 64
نقاط : 30748
تاريخ التسجيل : 26/08/2009

مُساهمةموضوع: رد: تاب نسم علينا الهوى   27/10/2009, 6:34 pm

مية مية
الرجوع الى أعلى الصفحة اذهب الى الأسفل
BlondLaw11
فــنان شـــغال
فــنان شـــغال
avatar

ذكر
عدد المساهمات : 20
نقاط : 26920
تاريخ التسجيل : 10/09/2010

مُساهمةموضوع: رد: تاب نسم علينا الهوى   10/9/2010, 2:00 am

لك تشكر يا غالي
والله انك ملك الملوووك
الرجوع الى أعلى الصفحة اذهب الى الأسفل
alrekabi
فــنان جــديـد
فــنان جــديـد


ذكر
عدد المساهمات : 8
نقاط : 25858
تاريخ التسجيل : 23/12/2010

مُساهمةموضوع: رد: تاب نسم علينا الهوى   23/12/2010, 10:46 pm

تحياتي ليك عزبزي
الرجوع الى أعلى الصفحة اذهب الى الأسفل
smsm_messi
فــنان مــشهـــور
فــنان مــشهـــور


ذكر
الجدي
عدد المساهمات : 92
نقاط : 25082
تاريخ التسجيل : 19/03/2011
العمر : 24

مُساهمةموضوع: رد: تاب نسم علينا الهوى   27/3/2011, 11:29 am

..................
الرجوع الى أعلى الصفحة اذهب الى الأسفل
http://www.tamerlovers.com
meftah90
فــنان شـــغال
فــنان شـــغال


ذكر
عدد المساهمات : 29
نقاط : 24909
تاريخ التسجيل : 30/03/2011

مُساهمةموضوع: رد: تاب نسم علينا الهوى   29/4/2011, 6:03 pm

homar
الرجوع الى أعلى الصفحة اذهب الى الأسفل
Mostafa Adel
فــنان شـــغال
فــنان شـــغال


ذكر
عدد المساهمات : 31
نقاط : 22521
تاريخ التسجيل : 24/11/2011
الموقع : http://www.facebook.com/profile.php?id=100000153819445

مُساهمةموضوع: رد: تاب نسم علينا الهوى   19/3/2012, 6:08 pm

(:
الرجوع الى أعلى الصفحة اذهب الى الأسفل
 
تاب نسم علينا الهوى
استعرض الموضوع السابق استعرض الموضوع التالي الرجوع الى أعلى الصفحة 
صفحة 1 من اصل 1

صلاحيات هذا المنتدى:لاتستطيع الرد على المواضيع في هذا المنتدى
We R The Guitar Lovers :: عــالـــم الجــيــتار :: تابات الجــيتار-
انتقل الى: