We R The Guitar Lovers

لتعليم الجيتار والكوردات والغناء والتاليف وكلمات الاغاني وكل ماله علاقة بالغناء
 
الرئيسيةالبوابةاليوميةس .و .جالأعضاءالتسجيلدخول

شاطر | 
 

 تاب انت عمرى

استعرض الموضوع السابق استعرض الموضوع التالي اذهب الى الأسفل 
كاتب الموضوعرسالة
Guliano_2020
فــنان مــشهـــور
فــنان مــشهـــور
avatar

ذكر
عدد المساهمات : 56
نقاط : 29432
تاريخ التسجيل : 13/10/2009

مُساهمةموضوع: تاب انت عمرى   21/10/2009, 4:47 pm

E----------------------------------------------
B----------------------------------------------
G----0--2-------0-2----------------------------
D----------------------------------------------
A--0--------0----------------------------------
E----------------------------------------------

E----------------------------------------------
B-------1--------------1-----------------------
G----3----2----------3---2---------------------
D----------------------------------------------
A--0--------------0----------------------------
E----------------------------------------------

E----------------------------------------------
B-------------------1--------------------------
G----3-2-1--------3---2------------------------
D----------------------------------------------
A-0-------------0------------------------------
E----------------------------------------------

E-1--0--1--3-0--------0---0--1-----------0-----
B-----------------------3------3----1-2----1---
G----------------------------------------------
D----------------------------------------------
A----------------------------------------------
الرجوع الى أعلى الصفحة اذهب الى الأسفل
MARWAN_ELGHANNAM
مـــديــــر عـــــام
مـــديــــر عـــــام
avatar

ذكر
السمك
عدد المساهمات : 734
نقاط : 30935
تاريخ التسجيل : 23/08/2009
العمر : 26
الموقع : http://guitarlovers.yoo7.com

مُساهمةموضوع: رد: تاب انت عمرى   25/10/2009, 6:55 pm

يا ريت تعدلها يا حبي وتعلمها هيدن عشان كده محد=ش هيفهم حاجة

_________________________________________
█▓▒░MERO★GUITAR░▒▓█


【ツ】  ♆نــــاويـــــ اعــــجـــــبــــكــــمــ♆  【ツ】


شباب دي ايميلاتي الجديدة لان القدام اتسرقو يعني محدش يفكر يكلمني عالاكاونتات القديمة ،، الي محتاج اي حاجة يكلمني على دول


وده الاكاونت بتاعي عالفيس بوك ،، وتحت امركم فاي وقت لاي استفسار


رقمي فمصر 01095002070
رقمي في الكويت 0096565558459

instagram
Marwan_Aventador
الرجوع الى أعلى الصفحة اذهب الى الأسفل
http://guitarlovers.yoo7.com
HOLAKOO
فــنان شـــغال
فــنان شـــغال


ذكر
عدد المساهمات : 36
نقاط : 28508
تاريخ التسجيل : 06/01/2010

مُساهمةموضوع: رد: تاب انت عمرى   8/1/2010, 8:52 pm

شكراااااااااااااااااا
الرجوع الى أعلى الصفحة اذهب الى الأسفل
morfie
فــنان جــديـد
فــنان جــديـد


ذكر
عدد المساهمات : 14
نقاط : 27184
تاريخ التسجيل : 16/05/2010

مُساهمةموضوع: رد: تاب انت عمرى   16/5/2010, 2:18 pm

thanxthanxthanxthanxthanxthanxthanxthanxthanxthanxthanxthanxthanxthanxthanxthanxthanxthanxthanxthanxthanxthanxthanxthanxthanxthanxthanxthanxthanx
الرجوع الى أعلى الصفحة اذهب الى الأسفل
ريدان
فــنان جــديـد
فــنان جــديـد


ذكر
عدد المساهمات : 8
نقاط : 26268
تاريخ التسجيل : 15/08/2010

مُساهمةموضوع: شكراً thank you very much   16/8/2010, 12:45 am

رائع جداً
الرجوع الى أعلى الصفحة اذهب الى الأسفل
mahamuod147
فــنان مــشهـــور
فــنان مــشهـــور


ذكر
عدد المساهمات : 99
نقاط : 25281
تاريخ التسجيل : 01/12/2010

مُساهمةموضوع: رد: تاب انت عمرى   20/12/2010, 5:45 pm

plz 3dlha we 7otha 3shan nfsy a3fha
الرجوع الى أعلى الصفحة اذهب الى الأسفل
smsm_messi
فــنان مــشهـــور
فــنان مــشهـــور


ذكر
الجدي
عدد المساهمات : 92
نقاط : 24192
تاريخ التسجيل : 19/03/2011
العمر : 23

مُساهمةموضوع: رد: تاب انت عمرى   27/3/2011, 11:29 am

...................
الرجوع الى أعلى الصفحة اذهب الى الأسفل
http://www.tamerlovers.com
fakory
فــنان شـــغال
فــنان شـــغال


ذكر
عدد المساهمات : 20
نقاط : 23370
تاريخ التسجيل : 02/06/2011

مُساهمةموضوع: رد: تاب انت عمرى   8/6/2011, 10:10 pm

جميل جوليانو
الرجوع الى أعلى الصفحة اذهب الى الأسفل
 
تاب انت عمرى
استعرض الموضوع السابق استعرض الموضوع التالي الرجوع الى أعلى الصفحة 
صفحة 1 من اصل 1

صلاحيات هذا المنتدى:لاتستطيع الرد على المواضيع في هذا المنتدى
We R The Guitar Lovers :: عــالـــم الجــيــتار :: تابات الجــيتار-
انتقل الى: