We R The Guitar Lovers

لتعليم الجيتار والكوردات والغناء والتاليف وكلمات الاغاني وكل ماله علاقة بالغناء
 
الرئيسيةالبوابةاليوميةس .و .جالأعضاءالتسجيلدخول

شاطر | 
 

 Celine Dion - My Heart Will Go On - Titanic Soundtrack

استعرض الموضوع السابق استعرض الموضوع التالي اذهب الى الأسفل 
كاتب الموضوعرسالة
ROMANTIC GUITAR
فــنان مــشهـــور
فــنان مــشهـــور
avatar

ذكر
الحمل
عدد المساهمات : 58
نقاط : 30190
تاريخ التسجيل : 26/08/2009
العمر : 26

مُساهمةموضوع: Celine Dion - My Heart Will Go On - Titanic Soundtrack   15/9/2009, 4:50 am

Celine Dion - My Heart Will Go On - Titanic Soundtrack

e
b----1----1----1----1---------|---0------1----1----------------------|----0------1------3----------------------|
g
d
a
E

e-----0-----------------------|-----------------------------------------|-------------------------------------------|
b-------------------3---------|-----1----1----1-----1-----------------|----0----1------1-------------------------|
g
d
a
E

e
b-----------------------------|---------------------------------------|-----1-------1------1-----1---------------|
g----0------------------------|-----0--------------------------------|--------------------------------------------|
d
a
E

e-----------------------------|------------------------------|------0------------------------------|
b--------0-------1-----1-----|-----0------1-------3--------|------------------------3------------|
g
d
a
E


e
b------1--------1------1------1---------|---0----1-----1---------------|-----------------------------|------------------------------|
g-----------------------------------------|-------------------------------|-------0--------------------|------0----------------------|
d
a
E

e-----------------------------------------|--------------------------------|-------3-------1------0-------------|
b------1---------------------------------|------3-------------------------|-------------------------------------|
g-----------------------------------------|----------------2--------------|--------------------------------------|
d
a
E

e----------0-----1-----------|-------0------------------------------|-------------------------------------------|
b------3---------------------|-----------------3---------1----------|------0------1-------0--------------------|
g
d
a
E

e
b---------------------------|--------------------------|-----1------------------|-------3-----------------------|
g----2----------------------|------0------------------|-------------------------|-----------------2-------------|
d
a
E





e-----3-----1------0---------|--------------0-------1-----------------|-------0----------------------------------|
b-----------------------------|------3---------------------------------|----------------3----------1--------------|
g
d
a
E

e------------------------------|---------------------------------------|------0------------------------------------|
b-----0---1---0---------------|------1----1----3---------------------|------------------------3------------------|
g
d
a
E

e
b-----1-------------------------|--------1----------------------------|-------------------------------------------|
g
d
a
E

e
b-----1-------------------------|--------1----------------------------|-------------------------------------------|
g
d
a
E

اعمل التابز مرتين عشان تبقى عملت الاغنيه كلها مع تحيات musical heart
الرجوع الى أعلى الصفحة اذهب الى الأسفل
المايسترو
فــنان شـــغال
فــنان شـــغال
avatar

ذكر
عدد المساهمات : 35
نقاط : 30124
تاريخ التسجيل : 27/08/2009

مُساهمةموضوع: رد: Celine Dion - My Heart Will Go On - Titanic Soundtrack   1/10/2009, 3:42 am

الله ينور عليك يا عمرو
مجهود رائع
خلينا نشوف شغلك بقي هه ؟! Wink
الرجوع الى أعلى الصفحة اذهب الى الأسفل
haydi_love
فــنان مــشهـــور
فــنان مــشهـــور
avatar

انثى
عدد المساهمات : 91
نقاط : 30136
تاريخ التسجيل : 29/08/2009

مُساهمةموضوع: رد: Celine Dion - My Heart Will Go On - Titanic Soundtrack   7/10/2009, 10:41 pm

تمام قوي
الرجوع الى أعلى الصفحة اذهب الى الأسفل
ROMANTIC GUITAR
فــنان مــشهـــور
فــنان مــشهـــور
avatar

ذكر
الحمل
عدد المساهمات : 58
نقاط : 30190
تاريخ التسجيل : 26/08/2009
العمر : 26

مُساهمةموضوع: رد: Celine Dion - My Heart Will Go On - Titanic Soundtrack   8/10/2009, 9:36 pm

شكرا للردودكوا و تقدير تعبي بجد
الرجوع الى أعلى الصفحة اذهب الى الأسفل
MARWAN_ELGHANNAM
مـــديــــر عـــــام
مـــديــــر عـــــام
avatar

ذكر
السمك
عدد المساهمات : 734
نقاط : 31225
تاريخ التسجيل : 23/08/2009
العمر : 26
الموقع : http://guitarlovers.yoo7.com

مُساهمةموضوع: رد: Celine Dion - My Heart Will Go On - Titanic Soundtrack   8/10/2009, 9:55 pm

الله ينور يا عمور

_________________________________________
█▓▒░MERO★GUITAR░▒▓█


【ツ】  ♆نــــاويـــــ اعــــجـــــبــــكــــمــ♆  【ツ】


شباب دي ايميلاتي الجديدة لان القدام اتسرقو يعني محدش يفكر يكلمني عالاكاونتات القديمة ،، الي محتاج اي حاجة يكلمني على دول


وده الاكاونت بتاعي عالفيس بوك ،، وتحت امركم فاي وقت لاي استفسار


رقمي فمصر 01095002070
رقمي في الكويت 0096565558459

instagram
Marwan_Aventador
الرجوع الى أعلى الصفحة اذهب الى الأسفل
http://guitarlovers.yoo7.com
captine 7oda
فــنان مـــتــميز
فــنان مـــتــميز
avatar

ذكر
الميزان
عدد المساهمات : 175
نقاط : 30311
تاريخ التسجيل : 27/08/2009
العمر : 24

مُساهمةموضوع: رد: Celine Dion - My Heart Will Go On - Titanic Soundtrack   8/4/2010, 2:45 am

thnnnnnnnnnnnnnnnnx
الرجوع الى أعلى الصفحة اذهب الى الأسفل
http://guitarlovers.yoo7.com
morfie
فــنان جــديـد
فــنان جــديـد


ذكر
عدد المساهمات : 14
نقاط : 27474
تاريخ التسجيل : 16/05/2010

مُساهمةموضوع: رد: Celine Dion - My Heart Will Go On - Titanic Soundtrack   16/5/2010, 2:19 pm

thanxthanxthanxthanxthanxthanxthanxthanxthanxthanxthanxthanxthanxthanxthanxthanxthanxthanxthanxthanxthanxthanxthanxthanxthanxthanxthanxthanxthanx
الرجوع الى أعلى الصفحة اذهب الى الأسفل
ahmadro
فــنان جــديـد
فــنان جــديـد


ذكر
عدد المساهمات : 7
نقاط : 27077
تاريخ التسجيل : 24/06/2010

مُساهمةموضوع: رد: Celine Dion - My Heart Will Go On - Titanic Soundtrack   24/6/2010, 11:21 am

thank yoooooooooooou
الرجوع الى أعلى الصفحة اذهب الى الأسفل
meftah90
فــنان شـــغال
فــنان شـــغال


ذكر
عدد المساهمات : 29
نقاط : 24309
تاريخ التسجيل : 30/03/2011

مُساهمةموضوع: رد: Celine Dion - My Heart Will Go On - Titanic Soundtrack   30/3/2011, 3:20 am


شكرا
الرجوع الى أعلى الصفحة اذهب الى الأسفل
 
Celine Dion - My Heart Will Go On - Titanic Soundtrack
استعرض الموضوع السابق استعرض الموضوع التالي الرجوع الى أعلى الصفحة 
صفحة 1 من اصل 1
 مواضيع مماثلة
-
» "my heart will go on" اغنية احلى فيلم رومانسي "titanic" _____لــــ"celine dion"...
» اغنية Celine Dion - Thats The Way It Is

صلاحيات هذا المنتدى:لاتستطيع الرد على المواضيع في هذا المنتدى
We R The Guitar Lovers :: عــالـــم الجــيــتار :: تابات الجــيتار-
انتقل الى: